LUXTORPEDA – Autystyczny

Nowy projekt Litzy i od razu z grubej armaty. Pierwszy oficjalny singiel i od razu trafiony. Jest to dowód na to, że nie zapomniał, jak się pisze chwytliwe riffy.

Intro/Refren:

D5 x4 A#5 x2
E|------------------------------|------------------------------|
H|------------------------------|------------------------------|
G|------------------------------|------------------------------|
D|----7--7--7--7--7--7--7--7----|------------------------------|
A|----5--5--5--5--5--5--5--5----|----8--8--8--8--8--8--8--8----|
E|------------------------------|----6--6--6--6--6--6--6--6----|

G5 F5
E|------------------------------|------------------------------|
H|------------------------------|------------------------------|
G|------------------------------|------------------------------|
D|------------------------------|------------------------------|
A|----5--5--5--5--5--5--5--5----|----3--3--3--3--3--3--3--3----|
E|----3--3--3--3--3--3--3--3----|----1--1--1--1--1--1--1--1----|

Zwrotka:

D5 x4 A#5 x2
E|------------------------------|------------------------------|
H|------------------------------|------------------------------|
G|------------------------------|------------------------------|
D|----7--7--7--7--7--7--7--7----|------------------------------|
A|----5--5--5--5--5--5--5--5----|----8--8--8--8--8--8--8--8----|
E|------------------------------|----6--6--6--6--6--6--6--6----|

D#5 x2
E|------------------------------|
H|------------------------------|
G|------------------------------|
D|----8--8--8--8--8--8--8--8----|
A|----6--6--6--6--6--6--6--6----|
E|------------------------------|
[za:guitaronline.pl]