2TM2,3 – Marana Tha (live)

2Tm2,3 na Woodstock 2006

Strojenie: B F B DIS G C

INTRO:

Tempo: 78

Solo Joszki, potem

Riff1 x4 Riff2 x8

||------------------------||
||*----------------------*||
||------------------------||
||--0---------5b6---5b6---||
||*-0--------------------*||
||--0---------------------||

||-------------------------------------------||
||*-----------------------------------------*||
||-------------------------------------------||
||-------------------------------------------||
||*-----------------------------------------*||
||--0-0---0-{3}~---0-0---0-{3}~---0-0-{3}~---||
ZWROTKA 1:

Riff3

P.M....| P.M....| P.M.|
||----------------------------------||
||*--------------------------------*||
||----------------------------------||
||----------------------------------||
||*--0-0---0-3---0-0---0-3---0-0-3-*||
||---0-0---0-3---0-0---0-3---0-0-3--||
Duch Pana nad Nim spoczął

On zapowie prawo wszystkim narodom
On nie będzie się spierał i nie będzie krzyczał
nie usłyszą jego głosu na ulicach
nie złamie trzciny nadłamanej
ani knota nie dogasi tlącego
On nie będzie się spierał i nie będzie krzyczał
nie usłyszą jego głosu na ulicach

REFREN:

Riff4

|---------|----------|---------------------------------------------|
|---------|----------|---------------------------------------------|
|---------|----------|---------------------------------------------|
|-1-------|-3--------|---------------------------------------------|
|-1-------|-3--------|---------------------------------------------|
|-1-------|-3--------|-0-0-0-0-0-{3}~---0-0-0-0-0-{3}~---0-0-{3}~--|
Marana Tha! /x6

|-----------|
|-----------|
|-----------|
|-----------|
|-----------|
|-0-0-0-0-0-|
x3
P.M.....|
|-----------------------------------|--------|--------||---------------||
|-----------------------------------|--------|--------||*-------------*||
|-----------------------------------|--------|--------||---------------||
|-----------------------------------|-1------|-3------||---------------||
|-----------------------------------|-1------|-3------||*-0--0--0-----*||
|-{3}~---0-0-0-0-0-{3}~---0-0-{3}~--|-1------|-3------||--0--0--0------||
Marana Tha! /x6

P.M...........|
|-----------------------||
|-----------------------||
|-----------------------||
|-----------------------||
|-0-0--0-0--0-0---------||
|-0-0--0-0--0-0---------||

ZWROTKA 2:

Riff 2 x8

Bóg ujął go za rękę
On jest sługą Pana, światłem narodów
On otwiera oczy, On uwalnia jenców,
tych co mieszkają w ciemnościach
nie złamie trzciny nadłlamanej
ani knota nie dogasi tlącego
On otwiera oczy, On uwalnia jenców,
tych co mieszkają w ciemnościach

REFREN

Riff 1 x8 z solówką Joszka

ZWROTKA 3 (modyfikacja riffu 2)

On otwiera oczy, On uwalnia jenców /x4

REFREN

Legend
------

h = hammer-on
p = pull-off
b = bend
r = bend release
/ = slide up/down
 = natural harmonic
[5] = artifical harmonic
~ = vibrato
tr = trill
*, P.M. = palm muting
--3-- = triplet